Banjo Hangout Logo
Banjo Hangout Logo

Premier Sponsors

505
Banjo Lovers Online


tab for bluesy medley in D

Posted by RyanHerr on Saturday, December 2, 2006

SUMMERTIME

--7----7-----------------7-------------------------
----6--6----------6----------6---------------------
-------7------------------------7-2----------------
-------7------------------------7-0----------------
--------------0-------0----------------------------
 Summertime   and the living is easy

-7--------5---5---3-------3--5-p-3--2--------2--2--
------6---3-----------3------3------2--------3--2--
----------3------------------3------2--------2--2--
----------5------------------5------2--------2--2--
---------------------------------------------------
 Fish are jumping and the cotton is high

-7----7-------7----------------7-------------------
---------6----6--------6------------6--------------
--------------7--------------------------7---2-----
--------------7--------------------------7---0-----
-------------------0--------0----------------------
 Your daddy's rich and your mamma's good looking


------------------3-----3--5p3---2---0-------------
----1-------1---3-----3----3-----2---3-------------
-2--2----2------3----------3-----2---2-------------
----3-----------3----------5-----2---3-------------
---------------------------------------------------
 So hush little baby,      don't you cry


Backup:

|-----M---------M-|
|-----I-----I-----|
|-----T-x-----T---|
|-T-x-----T-------|
|-----------------|
  1   2   3 & 4 &


|-0----0----0----0----0----0----0----2----
|-1----1----1----1----1----1----1----2----
|-2----2----2----2----2----2----2----0----
|-0----2----3----2----0----2----3----2----
|-----------------------------------------
  Dm7 with bass run.  again, and then A7: "Summer-"


|-0----0----0----0----0----0----0----0----
|-1----1----1----1----1----1----1----1----
|-2----2----2----2----2----2----2----2----
|-0----2----3----2----0----2----3----2----
|-----------------------------------------
 "-time ..."          "easy ..."

                      *    *  
|-5----5----5----5----2----2----3----2----
|-3----3----6----3----2----2----3----2----
|-3----3----7----3----2----0----2----2----
|-3----5----7----5---(2)--(2)---3----2----
|-----------------------------------------
  Gm with bass run    A7: "high..."

* Play the first note of the rhythm pattern on the third string, so that you get a descending bass run: A, G, F, E, leading to the D.


|-0----0----0----0----0----0----0----0----
|-1----1----1----1----1----1----1----1----
|-2----2----2----2----2----2----2----2----
|-0----2----3----2----0----2----3----2----
|-----------------------------------------
 "rich ..."           "lookin ..."


|-3----3----3----5----0----0----2----2----
|-1----1----3----3----3----3----2----2----
|-2----2----3----3----2----2----0----0----
|-3----3----3----5----3----3----2----2----
|-----------------------------------------
F:"hush.... dont you cry"



2 comments on “tab for bluesy medley in D”

Zawinul Says:
Thursday, May 10, 2007 @1:41:11 PM

Absolutely fantastic stuff!!! Thanks so much for sharing!

Jammer Says:
Friday, October 5, 2007 @9:33:19 PM

I would like to Thank You for MAN OF CONSTANT SORROW Tab! That one had me a bit lost... Based on your tab it appears as if I was in the wrong key for the song!

You must sign into your myHangout account before you can post comments.



More posts from RyanHerr

Hide these ads: join the Players Union!

Hangout Network Help

View All Topics  |  View Categories

7.800293E-02