Banjo Hangout Logo
Banjo Hangout Logo

Premier Sponsors

721
Banjo Lovers Online


Shalom Aleichem

Posted by BrentSims on Tuesday, March 24, 2015

I'm not sure who wrote the melody to this. I learned it in Shul. I am, however, sure that it is one of my favorite tunes.

D|------------------------|------------------------------|------------------------------|
B|------1---0-------------|---------0--------------------|--------------------------1---|
G|--------------2----2----|-1---2-------2---1------------|-1---1---1----2---1---2-------|
D|-2----------------------|---------------------3---2----|------------------------------|
G|------------------------|------------------------------|------------------------------|

D|-------2-----|------------------------|------------------------------|---------------------------|
B|-0-----------|------1---0-------------|---------0--------------------|---------------------------|
G|-------------|--------------2----2----|-1---2-------2---1------------|------2----1---------------|
D|-------------|-2----------------------|---------------------3---2----|-0--------------3---2-3-0--|
G|-------------|------------------------|------------------------------|---------------------------|

D|-------------|-----0---2----2----2----|-0---------------0---2---0----|---------------------2---0-------|
B|-------------|-1----------------------|-----1---0---1----------------|-1---0-------0---1-----------1---|
G|-------------|------------------------|------------------------------|---------2-----------------------|
D|-2-----------|------------------------|------------------------------|---------------------------------|
G|-------------|------------------------|------------------------------|---------------------------------|

D|-------------|------0----0----0----|-0---3---2---0-------------------|---------------------------|
B|-0-----------|-0-------------------|-----------------1---0-----------|-1----0-------0------------|
G|-------------|---------------------|-------------------------2-------|----------2--------2---1---|
D|-------------|---------------------|-----------------------------2---|---------------------------|
G|-------------|---------------------|---------------------------------|---------------------------|

D|-------------|
B|-------------|
G|-2-----------|
D|-------------|
G|-------------|


Be the first to comment on “Shalom Aleichem”

You must sign into your myHangout account before you can post comments.



More posts from BrentSims

Newest Posts

Click for Details 'SPBGMA 2022' 38 min

More >  

Hangout Network Help

View All Topics  |  View Categories

0.078125