Banjo Hangout Logo
Banjo Hangout Logo

Premier Sponsors

433
Banjo Lovers Online


View MSETTLE79's Homepage

MSETTLE79

You must sign into your myHangout account in order to contact MSETTLE79.


ive got dropkick murphys banjo tabs!!!

Wednesday, August 11, 2010


since bajo tabs r so hard to find i thought id feed u baby birds

shipping up to boston
dropkick murphys
by: msettle79@yahoo.com
4 sting banjo

intro
-2-0-2-0-2-4-5-4-2-0--9-7-5-7-5-4-5-0-2-
----------------------------------------
-----------------------------------------
---------------------------------------

riff 1
-2-0-2-0-2-4-5-4-2-0--
----------------------
---------------------
----------------------

riff 2
-2-0-2-0-2-4-5-9----
-------------------
--------------------
--------------------

riff 3
-9-7-5-7-5-4-5-0-2-
-------------------
--------------------
--------------------

ORDER
intro
riff 1
riff 2
riff 1
riff 3

 

the state of mass.
dropkick murphys
by: msettle79@yahoo.com
4 sting banjo

intro/main riff

---------------------------------------------
-5--5-5--------------------------------------
--------7-5-3-3-3-3-5-------------0-0-0-0-0--
----------------------5-5-5-5-3p0------------ X2

--------------------------------------------
5-5-5-----8-8-8-5-3-3-3-3-5-5-5-5-----------
------7-5----------------------------------- X1
--------------------------------------------

--------------------------------------------
-0-5-00-7-00-8-00-12-00-10-00-8-00-777777777
--------------------------------------------
--------------------------------------------

play this fast as hell
the 5-5-5-----
    ------7-5- are 2gether
its hard to get the rhythm

 

 

2 comments

MSETTLE79's friends list is empty.

Classified Rating: not rated
Rate this Member

Profile Info:
Visible to: Public
Created 8/11/2010
Last Visit 8/11/2010

Hangout Network Help

View All Topics  |  View Categories

0.25